ISO-10303-21;
HEADER;
FILE_DESCRIPTION (( 'STEP AP203' ),
    '1' );
FILE_NAME ('250814 STEP 3-400575-00_6949.STEP',
    '2025-08-14T11:00:32',
    ( '' ),
    ( '' ),
    'SwSTEP 2.0',
    'SolidWorks 2024',
    '' );
FILE_SCHEMA (( 'CONFIG_CONTROL_DESIGN' ));
ENDSEC;

DATA;
#1 = EDGE_LOOP ( 'NONE', ( #191 ) ) ;
#2 = PERSON_AND_ORGANIZATION ( #264, #143 ) ;
#3 = DIRECTION ( 'NONE',  ( -0.000000000000000000, -0.000000000000000000, 1.000000000000000000 ) ) ;
#4 = CALENDAR_DATE ( 2025, 14, 8 ) ;
#5 = DIRECTION ( 'NONE',  ( 1.000000000000000000, 0.000000000000000000, 0.000000000000000000 ) ) ;
#6 = AXIS2_PLACEMENT_3D ( 'NONE', #144, #114, #298 ) ;
#7 = DIRECTION ( 'NONE',  ( -0.000000000000000000, -0.000000000000000000, 1.000000000000000000 ) ) ;
#8 = CARTESIAN_POINT ( 'NONE',  ( 0.000000000000000000, 0.000000000000000000, 9.400000000000000355 ) ) ;
#9 = FACE_BOUND ( 'NONE', #74, .T. ) ;
#10 = LOCAL_TIME ( 14, 0, 32.00000000000000000, #27 ) ;
#11 = AXIS2_PLACEMENT_3D ( 'NONE', #107, #206, #205 ) ;
#12 = VERTEX_POINT ( 'NONE', #68 ) ;
#13 =( NAMED_UNIT ( * ) PLANE_ANGLE_UNIT ( ) SI_UNIT ( $, .RADIAN. ) );
#14 = AXIS2_PLACEMENT_3D ( 'NONE', #56, #295, #28 ) ;
#15 = CARTESIAN_POINT ( 'NONE',  ( 17.50000000000000000, 0.000000000000000000, 9.399999999999996803 ) ) ;
#16 = TOROIDAL_SURFACE ( 'NONE', #231, 82.59999999999999432, 2.999999999999993339 ) ;
#17 = EDGE_CURVE ( 'NONE', #48, #48, #297, .T. ) ;
#18 = FACE_OUTER_BOUND ( 'NONE', #258, .T. ) ;
#19 = VERTEX_POINT ( 'NONE', #183 ) ;
#20 = CYLINDRICAL_SURFACE ( 'NONE', #40, 7.500000000000000000 ) ;
#21 = CIRCLE ( 'NONE', #204, 95.50000000000000000 ) ;
#22 = AXIS2_PLACEMENT_3D ( 'NONE', #8, #256, #173 ) ;
#23 = ADVANCED_FACE ( 'NONE', ( #327, #195 ), #239, .F. ) ;
#24 = DIRECTION ( 'NONE',  ( 1.000000000000000000, 0.000000000000000000, 0.000000000000000000 ) ) ;
#25 = ORIENTED_EDGE ( 'NONE', *, *, #77, .T. ) ;
#26 = DIRECTION ( 'NONE',  ( -0.000000000000000000, -0.000000000000000000, 1.000000000000000000 ) ) ;
#27 = COORDINATED_UNIVERSAL_TIME_OFFSET ( 2, 0, .AHEAD. ) ;
#28 = DIRECTION ( 'NONE',  ( 1.000000000000000000, 0.000000000000000000, -0.000000000000000000 ) ) ;
#29 = COORDINATED_UNIVERSAL_TIME_OFFSET ( 2, 0, .AHEAD. ) ;
#30 = CYLINDRICAL_SURFACE ( 'NONE', #243, 95.50000000000000000 ) ;
#31 = CC_DESIGN_PERSON_AND_ORGANIZATION_ASSIGNMENT ( #277, #305, ( #84 ) ) ;
#32 = APPROVAL_STATUS ( 'not_yet_approved' ) ;
#33 = FACE_OUTER_BOUND ( 'NONE', #102, .T. ) ;
#34 = DIRECTION ( 'NONE',  ( 1.000000000000000000, 0.000000000000000000, 0.000000000000000000 ) ) ;
#35 = AXIS2_PLACEMENT_3D ( 'NONE', #82, #180, #283 ) ;
#36 = DIRECTION ( 'NONE',  ( 0.000000000000000000, 0.000000000000000000, 1.000000000000000000 ) ) ;
#37 = DIRECTION ( 'NONE',  ( 1.000000000000000000, 0.000000000000000000, 0.000000000000000000 ) ) ;
#38 = PERSON_AND_ORGANIZATION ( #264, #143 ) ;
#39 = ORIENTED_EDGE ( 'NONE', *, *, #77, .F. ) ;
#40 = AXIS2_PLACEMENT_3D ( 'NONE', #167, #245, #108 ) ;
#41 = CALENDAR_DATE ( 2025, 14, 8 ) ;
#42 = CARTESIAN_POINT ( 'NONE',  ( 95.50000000000000000, 0.000000000000000000, -9.400000000000000355 ) ) ;
#43 = ORIENTED_EDGE ( 'NONE', *, *, #200, .F. ) ;
#44 = EDGE_LOOP ( 'NONE', ( #318 ) ) ;
#45 = CC_DESIGN_APPROVAL ( #257, ( #84 ) ) ;
#46 = ADVANCED_FACE ( 'NONE', ( #121, #54 ), #118, .F. ) ;
#47 = DIRECTION ( 'NONE',  ( 1.000000000000000000, 0.000000000000000000, 0.000000000000000000 ) ) ;
#48 = VERTEX_POINT ( 'NONE', #15 ) ;
#49 = FACE_OUTER_BOUND ( 'NONE', #248, .T. ) ;
#50 = EDGE_CURVE ( 'NONE', #311, #311, #135, .T. ) ;
#51 = COORDINATED_UNIVERSAL_TIME_OFFSET ( 2, 0, .AHEAD. ) ;
#52 = CARTESIAN_POINT ( 'NONE',  ( 0.000000000000000000, 0.000000000000000000, -9.400000000000003908 ) ) ;
#53 = CIRCLE ( 'NONE', #35, 7.500000000000000000 ) ;
#54 = FACE_OUTER_BOUND ( 'NONE', #303, .T. ) ;
#55 = DATE_AND_TIME ( #168, #129 ) ;
#56 = CARTESIAN_POINT ( 'NONE',  ( 0.000000000000000000, 0.000000000000000000, -5.500000000000005329 ) ) ;
#57 = CC_DESIGN_SECURITY_CLASSIFICATION ( #309, ( #84 ) ) ;
#58 = PRODUCT_DEFINITION ( 'UNKNOWN', '', #84, #320 ) ;
#59 = FACE_BOUND ( 'NONE', #94, .T. ) ;
#60 = AXIS2_PLACEMENT_3D ( 'NONE', #96, #269, #165 ) ;
#61 = DATE_AND_TIME ( #225, #162 ) ;
#62 = CARTESIAN_POINT ( 'NONE',  ( 0.000000000000000000, 0.000000000000000000, 5.499999999999994671 ) ) ;
#63 = DIRECTION ( 'NONE',  ( 0.000000000000000000, 0.000000000000000000, -1.000000000000000000 ) ) ;
#64 = FACE_OUTER_BOUND ( 'NONE', #1, .T. ) ;
#65 = CARTESIAN_POINT ( 'NONE',  ( 0.000000000000000000, 0.000000000000000000, -5.932699691037459644 ) ) ;
#66 = CARTESIAN_POINT ( 'NONE',  ( 14.99999999999999822, 0.000000000000000000, -9.400000000000003908 ) ) ;
#67 = DIRECTION ( 'NONE',  ( -0.000000000000000000, -0.000000000000000000, -1.000000000000000000 ) ) ;
#68 = CARTESIAN_POINT ( 'NONE',  ( 7.500000000000000000, 0.000000000000000000, 5.499999999999994671 ) ) ;
#69 = EDGE_LOOP ( 'NONE', ( #148 ) ) ;
#70 = CC_DESIGN_PERSON_AND_ORGANIZATION_ASSIGNMENT ( #228, #302, ( #84 ) ) ;
#71 = ORIENTED_EDGE ( 'NONE', *, *, #111, .F. ) ;
#72 = MANIFOLD_SOLID_BREP ( 'Boss-Extrude1', #178 ) ;
#73 = EDGE_LOOP ( 'NONE', ( #301 ) ) ;
#74 = EDGE_LOOP ( 'NONE', ( #25 ) ) ;
#75 = LOCAL_TIME ( 14, 0, 32.00000000000000000, #51 ) ;
#76 = EDGE_LOOP ( 'NONE', ( #170 ) ) ;
#77 = EDGE_CURVE ( 'NONE', #209, #209, #192, .T. ) ;
#78 = DIRECTION ( 'NONE',  ( -1.000000000000000000, 0.000000000000000000, 0.000000000000000000 ) ) ;
#79 = FACE_OUTER_BOUND ( 'NONE', #266, .T. ) ;
#80 = AXIS2_PLACEMENT_3D ( 'NONE', #229, #122, #182 ) ;
#81 = ADVANCED_FACE ( 'NONE', ( #194, #199 ), #290, .T. ) ;
#82 = CARTESIAN_POINT ( 'NONE',  ( 0.000000000000000000, 0.000000000000000000, 5.499999999999994671 ) ) ;
#83 = DIRECTION ( 'NONE',  ( 1.000000000000000000, 0.000000000000000000, 0.000000000000000000 ) ) ;
#84 = PRODUCT_DEFINITION_FORMATION_WITH_SPECIFIED_SOURCE ( 'ANY', '', #251, .NOT_KNOWN. ) ;
#85 = CARTESIAN_POINT ( 'NONE',  ( 0.000000000000000000, 0.000000000000000000, 2.928888021359793647 ) ) ;
#86 = CARTESIAN_POINT ( 'NONE',  ( 95.50000000000000000, 0.000000000000000000, -5.932699691037459644 ) ) ;
#87 = ADVANCED_FACE ( 'NONE', ( #18, #218 ), #138, .F. ) ;
#88 = CARTESIAN_POINT ( 'NONE',  ( 0.000000000000000000, 0.000000000000000000, -5.500000000000005329 ) ) ;
#89 = ORIENTED_EDGE ( 'NONE', *, *, #111, .T. ) ;
#90 = PERSON_AND_ORGANIZATION_ROLE ( 'creator' ) ;
#91 = VERTEX_POINT ( 'NONE', #42 ) ;
#92 = APPROVAL_PERSON_ORGANIZATION ( #219, #257, #326 ) ;
#93 = CIRCLE ( 'NONE', #80, 95.50000000000000000 ) ;
#94 = EDGE_LOOP ( 'NONE', ( #214 ) ) ;
#95 = VERTEX_POINT ( 'NONE', #259 ) ;
#96 = CARTESIAN_POINT ( 'NONE',  ( 0.000000000000000000, 0.000000000000000000, 2.928888021359793647 ) ) ;
#97 = AXIS2_PLACEMENT_3D ( 'NONE', #223, #221, #116 ) ;
#98 = DATE_TIME_ROLE ( 'creation_date' ) ;
#99 = EDGE_LOOP ( 'NONE', ( #172 ) ) ;
#100 = ORIENTED_EDGE ( 'NONE', *, *, #17, .T. ) ;
#101 = ADVANCED_FACE ( 'NONE', ( #49, #140 ), #20, .F. ) ;
#102 = EDGE_LOOP ( 'NONE', ( #210 ) ) ;
#103 = CARTESIAN_POINT ( 'NONE',  ( 0.000000000000000000, 0.000000000000000000, 9.400000000000000355 ) ) ;
#104 = ADVANCED_FACE ( 'NONE', ( #123, #230 ), #30, .T. ) ;
#105 = DIRECTION ( 'NONE',  ( 0.000000000000000000, -0.000000000000000000, 1.000000000000000000 ) ) ;
#106 = AXIS2_PLACEMENT_3D ( 'NONE', #166, #26, #241 ) ;
#107 = CARTESIAN_POINT ( 'NONE',  ( 0.000000000000000000, 0.000000000000000000, 9.400000000000000355 ) ) ;
#108 = DIRECTION ( 'NONE',  ( -1.000000000000000000, 0.000000000000000000, 0.000000000000000000 ) ) ;
#109 = CC_DESIGN_APPROVAL ( #278, ( #309 ) ) ;
#110 = DIRECTION ( 'NONE',  ( -0.000000000000000000, -0.000000000000000000, 1.000000000000000000 ) ) ;
#111 = EDGE_CURVE ( 'NONE', #112, #112, #151, .T. ) ;
#112 = VERTEX_POINT ( 'NONE', #134 ) ;
#113 = AXIS2_PLACEMENT_3D ( 'NONE', #177, #175, #34 ) ;
#114 = DIRECTION ( 'NONE',  ( -0.000000000000000000, -0.000000000000000000, 1.000000000000000000 ) ) ;
#115 = AXIS2_PLACEMENT_3D ( 'NONE', #201, #105, #282 ) ;
#116 = DIRECTION ( 'NONE',  ( -1.000000000000000000, 0.000000000000000000, -0.000000000000000000 ) ) ;
#117 = CARTESIAN_POINT ( 'NONE',  ( 81.95068115818568799, 0.000000000000000000, 2.928888021359793647 ) ) ;
#118 = PLANE ( 'NONE',  #97 ) ;
#119 = DIRECTION ( 'NONE',  ( 1.000000000000000000, 0.000000000000000000, 0.000000000000000000 ) ) ;
#120 = SHAPE_DEFINITION_REPRESENTATION ( #202, #171 ) ;
#121 = FACE_BOUND ( 'NONE', #324, .T. ) ;
#122 = DIRECTION ( 'NONE',  ( -0.000000000000000000, -0.000000000000000000, 1.000000000000000000 ) ) ;
#123 = FACE_OUTER_BOUND ( 'NONE', #321, .T. ) ;
#124 = FACE_OUTER_BOUND ( 'NONE', #315, .T. ) ;
#125 = CIRCLE ( 'NONE', #161, 7.500000000000000000 ) ;
#126 = FACE_OUTER_BOUND ( 'NONE', #263, .T. ) ;
#127 = EDGE_CURVE ( 'NONE', #211, #211, #322, .T. ) ;
#128 = DIRECTION ( 'NONE',  ( -0.000000000000000000, -0.000000000000000000, 1.000000000000000000 ) ) ;
#129 = LOCAL_TIME ( 14, 0, 32.00000000000000000, #253 ) ;
#130 = PERSON_AND_ORGANIZATION_ROLE ( 'design_owner' ) ;
#131 = EDGE_LOOP ( 'NONE', ( #185 ) ) ;
#132 = AXIS2_PLACEMENT_3D ( 'NONE', #152, #308, #37 ) ;
#133 = EDGE_CURVE ( 'NONE', #216, #216, #93, .T. ) ;
#134 = CARTESIAN_POINT ( 'NONE',  ( 95.50000000000000000, 0.000000000000000000, 9.400000000000000355 ) ) ;
#135 = CIRCLE ( 'NONE', #106, 81.95068115818568799 ) ;
#136 = ORIENTED_EDGE ( 'NONE', *, *, #285, .F. ) ;
#137 = CC_DESIGN_DATE_AND_TIME_ASSIGNMENT ( #55, #98, ( #58 ) ) ;
#138 = CYLINDRICAL_SURFACE ( 'NONE', #6, 15.00000000000000000 ) ;
#139 = MECHANICAL_CONTEXT ( 'NONE', #179, 'mechanical' ) ;
#140 = FACE_OUTER_BOUND ( 'NONE', #238, .T. ) ;
#141 = APPROVAL_DATE_TIME ( #184, #319 ) ;
#142 = AXIS2_PLACEMENT_3D ( 'NONE', #52, #146, #47 ) ;
#143 = ORGANIZATION ( 'UNSPECIFIED', 'UNSPECIFIED', '' ) ;
#144 = CARTESIAN_POINT ( 'NONE',  ( 0.000000000000000000, 0.000000000000000000, 9.400000000000000355 ) ) ;
#145 = APPROVAL_DATE_TIME ( #61, #278 ) ;
#146 = DIRECTION ( 'NONE',  ( -0.000000000000000000, -0.000000000000000000, 1.000000000000000000 ) ) ;
#147 = APPROVAL_DATE_TIME ( #149, #257 ) ;
#148 = ORIENTED_EDGE ( 'NONE', *, *, #313, .F. ) ;
#149 = DATE_AND_TIME ( #222, #247 ) ;
#150 = FACE_OUTER_BOUND ( 'NONE', #235, .T. ) ;
#151 = CIRCLE ( 'NONE', #11, 95.50000000000000000 ) ;
#152 = CARTESIAN_POINT ( 'NONE',  ( 0.000000000000000000, 0.000000000000000000, 9.400000000000000355 ) ) ;
#153 = AXIS2_PLACEMENT_3D ( 'NONE', #274, #276, #119 ) ;
#154 = CARTESIAN_POINT ( 'NONE',  ( 0.000000000000000000, 0.000000000000000000, 0.000000000000000000 ) ) ;
#155 = CYLINDRICAL_SURFACE ( 'NONE', #132, 17.50000000000000000 ) ;
#156 =( GEOMETRIC_REPRESENTATION_CONTEXT ( 3 ) GLOBAL_UNCERTAINTY_ASSIGNED_CONTEXT ( ( #261 ) ) GLOBAL_UNIT_ASSIGNED_CONTEXT ( ( #286, #13, #262 ) ) REPRESENTATION_CONTEXT ( 'NONE', 'WORKASPACE' ) );
#157 = DIRECTION ( 'NONE',  ( 1.000000000000000000, 0.000000000000000000, 0.000000000000000000 ) ) ;
#158 = CARTESIAN_POINT ( 'NONE',  ( 17.50000000000000355, 0.000000000000000000, 5.499999999999994671 ) ) ;
#159 = ADVANCED_FACE ( 'NONE', ( #33, #126 ), #155, .F. ) ;
#160 = AXIS2_PLACEMENT_3D ( 'NONE', #233, #284, #203 ) ;
#161 = AXIS2_PLACEMENT_3D ( 'NONE', #226, #36, #207 ) ;
#162 = LOCAL_TIME ( 14, 0, 32.00000000000000000, #29 ) ;
#163 = ORIENTED_EDGE ( 'NONE', *, *, #215, .F. ) ;
#164 = CC_DESIGN_PERSON_AND_ORGANIZATION_ASSIGNMENT ( #38, #130, ( #251 ) ) ;
#165 = DIRECTION ( 'NONE',  ( 1.000000000000000000, 0.000000000000000000, 0.000000000000000000 ) ) ;
#166 = CARTESIAN_POINT ( 'NONE',  ( 0.000000000000000000, 0.000000000000000000, -2.928888021359793647 ) ) ;
#167 = CARTESIAN_POINT ( 'NONE',  ( 0.000000000000000000, 0.000000000000000000, 5.499999999999994671 ) ) ;
#168 = CALENDAR_DATE ( 2025, 14, 8 ) ;
#169 = AXIS2_PLACEMENT_3D ( 'NONE', #88, #67, #24 ) ;
#170 = ORIENTED_EDGE ( 'NONE', *, *, #127, .T. ) ;
#171 = ADVANCED_BREP_SHAPE_REPRESENTATION ( '250814 STEP 3-400575-00_6949', ( #72, #291 ), #156 ) ;
#172 = ORIENTED_EDGE ( 'NONE', *, *, #190, .T. ) ;
#173 = DIRECTION ( 'NONE',  ( 1.000000000000000000, 0.000000000000000000, 0.000000000000000000 ) ) ;
#174 = ADVANCED_FACE ( 'NONE', ( #150, #9 ), #250, .F. ) ;
#175 = DIRECTION ( 'NONE',  ( -0.000000000000000000, -0.000000000000000000, 1.000000000000000000 ) ) ;
#176 = SECURITY_CLASSIFICATION_LEVEL ( 'unclassified' ) ;
#177 = CARTESIAN_POINT ( 'NONE',  ( 0.000000000000000000, 0.000000000000000000, -9.400000000000000355 ) ) ;
#178 = CLOSED_SHELL ( 'NONE', ( #159, #87, #174, #104, #246, #236, #81, #289, #46, #23, #310, #101 ) ) ;
#179 = APPLICATION_CONTEXT ( 'configuration controlled 3d designs of mechanical parts and assemblies' ) ;
#180 = DIRECTION ( 'NONE',  ( 0.000000000000000000, 0.000000000000000000, 1.000000000000000000 ) ) ;
#181 = APPROVAL_PERSON_ORGANIZATION ( #2, #278, #272 ) ;
#182 = DIRECTION ( 'NONE',  ( 1.000000000000000000, 0.000000000000000000, 0.000000000000000000 ) ) ;
#183 = CARTESIAN_POINT ( 'NONE',  ( 15.00000000000000000, 0.000000000000000000, -5.500000000000005329 ) ) ;
#184 = DATE_AND_TIME ( #41, #75 ) ;
#185 = ORIENTED_EDGE ( 'NONE', *, *, #313, .T. ) ;
#186 = CARTESIAN_POINT ( 'NONE',  ( 95.50000000000000000, 0.000000000000000000, 5.932699691037459644 ) ) ;
#187 = ORIENTED_EDGE ( 'NONE', *, *, #50, .F. ) ;
#188 = AXIS2_PLACEMENT_3D ( 'NONE', #254, #63, #78 ) ;
#189 = CARTESIAN_POINT ( 'NONE',  ( 0.000000000000000000, 0.000000000000000000, 0.000000000000000000 ) ) ;
#190 = EDGE_CURVE ( 'NONE', #296, #296, #260, .T. ) ;
#191 = ORIENTED_EDGE ( 'NONE', *, *, #133, .T. ) ;
#192 = CIRCLE ( 'NONE', #142, 14.99999999999999822 ) ;
#193 = ORIENTED_EDGE ( 'NONE', *, *, #200, .T. ) ;
#194 = FACE_OUTER_BOUND ( 'NONE', #44, .T. ) ;
#195 = FACE_OUTER_BOUND ( 'NONE', #131, .T. ) ;
#196 = PERSON_AND_ORGANIZATION_ROLE ( 'classification_officer' ) ;
#197 = ORIENTED_EDGE ( 'NONE', *, *, #224, .T. ) ;
#198 = COORDINATED_UNIVERSAL_TIME_OFFSET ( 2, 0, .AHEAD. ) ;
#199 = FACE_BOUND ( 'NONE', #76, .T. ) ;
#200 = EDGE_CURVE ( 'NONE', #316, #316, #21, .T. ) ;
#201 = CARTESIAN_POINT ( 'NONE',  ( 0.000000000000000000, 43.48060100327663946, -9.400000000000000355 ) ) ;
#202 = PRODUCT_DEFINITION_SHAPE ( 'NONE', 'NONE',  #58 ) ;
#203 = DIRECTION ( 'NONE',  ( 1.000000000000000000, 0.000000000000000000, 0.000000000000000000 ) ) ;
#204 = AXIS2_PLACEMENT_3D ( 'NONE', #65, #128, #83 ) ;
#205 = DIRECTION ( 'NONE',  ( 1.000000000000000000, 0.000000000000000000, 0.000000000000000000 ) ) ;
#206 = DIRECTION ( 'NONE',  ( -0.000000000000000000, -0.000000000000000000, 1.000000000000000000 ) ) ;
#207 = DIRECTION ( 'NONE',  ( 1.000000000000000000, 0.000000000000000000, 0.000000000000000000 ) ) ;
#208 = DIRECTION ( 'NONE',  ( 1.000000000000000000, 0.000000000000000000, -0.000000000000000000 ) ) ;
#209 = VERTEX_POINT ( 'NONE', #66 ) ;
#210 = ORIENTED_EDGE ( 'NONE', *, *, #190, .F. ) ;
#211 = VERTEX_POINT ( 'NONE', #117 ) ;
#212 = CIRCLE ( 'NONE', #113, 95.50000000000000000 ) ;
#213 = ORIENTED_EDGE ( 'NONE', *, *, #17, .F. ) ;
#214 = ORIENTED_EDGE ( 'NONE', *, *, #224, .F. ) ;
#215 = EDGE_CURVE ( 'NONE', #95, #95, #125, .T. ) ;
#216 = VERTEX_POINT ( 'NONE', #186 ) ;
#217 = AXIS2_PLACEMENT_3D ( 'NONE', #85, #3, #5 ) ;
#218 = FACE_OUTER_BOUND ( 'NONE', #69, .T. ) ;
#219 = PERSON_AND_ORGANIZATION ( #264, #143 ) ;
#220 = ORIENTED_EDGE ( 'NONE', *, *, #127, .F. ) ;
#221 = DIRECTION ( 'NONE',  ( 0.000000000000000000, 0.000000000000000000, -1.000000000000000000 ) ) ;
#222 = CALENDAR_DATE ( 2025, 14, 8 ) ;
#223 = CARTESIAN_POINT ( 'NONE',  ( 0.000000000000000000, 44.32330298965098336, 9.400000000000000355 ) ) ;
#224 = EDGE_CURVE ( 'NONE', #12, #12, #53, .T. ) ;
#225 = CALENDAR_DATE ( 2025, 14, 8 ) ;
#226 = CARTESIAN_POINT ( 'NONE',  ( 0.000000000000000000, 0.000000000000000000, -5.500000000000005329 ) ) ;
#227 = PRODUCT_RELATED_PRODUCT_CATEGORY ( 'detail', '', ( #251 ) ) ;
#228 = PERSON_AND_ORGANIZATION ( #264, #143 ) ;
#229 = CARTESIAN_POINT ( 'NONE',  ( 0.000000000000000000, 0.000000000000000000, 5.932699691037459644 ) ) ;
#230 = FACE_OUTER_BOUND ( 'NONE', #73, .T. ) ;
#231 = AXIS2_PLACEMENT_3D ( 'NONE', #154, #7, #304 ) ;
#232 = CYLINDRICAL_SURFACE ( 'NONE', #22, 95.50000000000000000 ) ;
#233 = CARTESIAN_POINT ( 'NONE',  ( 0.000000000000000000, 0.000000000000000000, 5.499999999999994671 ) ) ;
#234 = APPROVAL_ROLE ( '' ) ;
#235 = EDGE_LOOP ( 'NONE', ( #136 ) ) ;
#236 = ADVANCED_FACE ( 'NONE', ( #307, #306 ), #16, .F. ) ;
#237 = CARTESIAN_POINT ( 'NONE',  ( 81.95068115818568799, 0.000000000000000000, -2.928888021359793647 ) ) ;
#238 = EDGE_LOOP ( 'NONE', ( #163 ) ) ;
#239 = PLANE ( 'NONE',  #14 ) ;
#240 = APPLICATION_PROTOCOL_DEFINITION ( 'international standard', 'config_control_design', 1994, #179 ) ;
#241 = DIRECTION ( 'NONE',  ( 1.000000000000000000, 0.000000000000000000, 0.000000000000000000 ) ) ;
#242 = DIRECTION ( 'NONE',  ( 0.000000000000000000, 0.000000000000000000, 1.000000000000000000 ) ) ;
#243 = AXIS2_PLACEMENT_3D ( 'NONE', #103, #110, #252 ) ;
#244 = APPROVAL_PERSON_ORGANIZATION ( #314, #319, #234 ) ;
#245 = DIRECTION ( 'NONE',  ( -0.000000000000000000, -0.000000000000000000, -1.000000000000000000 ) ) ;
#246 = ADVANCED_FACE ( 'NONE', ( #255, #79 ), #317, .T. ) ;
#247 = LOCAL_TIME ( 14, 0, 32.00000000000000000, #198 ) ;
#248 = EDGE_LOOP ( 'NONE', ( #197 ) ) ;
#249 = DATE_AND_TIME ( #4, #10 ) ;
#250 = PLANE ( 'NONE',  #115 ) ;
#251 = PRODUCT ( '250814 STEP 3-400575-00_6949', '250814 STEP 3-400575-00_6949', '', ( #139 ) ) ;
#252 = DIRECTION ( 'NONE',  ( 1.000000000000000000, 0.000000000000000000, 0.000000000000000000 ) ) ;
#253 = COORDINATED_UNIVERSAL_TIME_OFFSET ( 2, 0, .AHEAD. ) ;
#254 = CARTESIAN_POINT ( 'NONE',  ( 0.000000000000000000, 0.000000000000000000, -5.932699691037459644 ) ) ;
#255 = FACE_BOUND ( 'NONE', #299, .T. ) ;
#256 = DIRECTION ( 'NONE',  ( -0.000000000000000000, -0.000000000000000000, 1.000000000000000000 ) ) ;
#257 = APPROVAL ( #32, 'UNSPECIFIED' ) ;
#258 = EDGE_LOOP ( 'NONE', ( #39 ) ) ;
#259 = CARTESIAN_POINT ( 'NONE',  ( 7.500000000000000000, 0.000000000000000000, -5.500000000000005329 ) ) ;
#260 = CIRCLE ( 'NONE', #160, 17.50000000000000355 ) ;
#261 = UNCERTAINTY_MEASURE_WITH_UNIT (LENGTH_MEASURE( 1.000000000000000082E-05 ), #286, 'distance_accuracy_value', 'NONE');
#262 =( NAMED_UNIT ( * ) SI_UNIT ( $, .STERADIAN. ) SOLID_ANGLE_UNIT ( ) );
#263 = EDGE_LOOP ( 'NONE', ( #100 ) ) ;
#264 = PERSON ( 'UNSPECIFIED', 'UNSPECIFIED', 'UNSPECIFIED', ('UNSPECIFIED'), ('UNSPECIFIED'), ('UNSPECIFIED') ) ;
#265 = APPROVAL_STATUS ( 'not_yet_approved' ) ;
#266 = EDGE_LOOP ( 'NONE', ( #193 ) ) ;
#267 = CC_DESIGN_APPROVAL ( #319, ( #58 ) ) ;
#268 = EDGE_LOOP ( 'NONE', ( #220 ) ) ;
#269 = DIRECTION ( 'NONE',  ( -0.000000000000000000, -0.000000000000000000, 1.000000000000000000 ) ) ;
#270 = APPLICATION_PROTOCOL_DEFINITION ( 'international standard', 'config_control_design', 1994, #325 ) ;
#271 = EDGE_LOOP ( 'NONE', ( #312 ) ) ;
#272 = APPROVAL_ROLE ( '' ) ;
#273 = AXIS2_PLACEMENT_3D ( 'NONE', #62, #242, #208 ) ;
#274 = CARTESIAN_POINT ( 'NONE',  ( 0.000000000000000000, 0.000000000000000000, 9.399999999999996803 ) ) ;
#275 = PERSON_AND_ORGANIZATION ( #264, #143 ) ;
#276 = DIRECTION ( 'NONE',  ( -0.000000000000000000, -0.000000000000000000, 1.000000000000000000 ) ) ;
#277 = PERSON_AND_ORGANIZATION ( #264, #143 ) ;
#278 = APPROVAL ( #328, 'UNSPECIFIED' ) ;
#279 = FACE_OUTER_BOUND ( 'NONE', #99, .T. ) ;
#280 = DATE_TIME_ROLE ( 'classification_date' ) ;
#281 = PLANE ( 'NONE',  #273 ) ;
#282 = DIRECTION ( 'NONE',  ( 1.000000000000000000, 0.000000000000000000, 0.000000000000000000 ) ) ;
#283 = DIRECTION ( 'NONE',  ( 1.000000000000000000, 0.000000000000000000, 0.000000000000000000 ) ) ;
#284 = DIRECTION ( 'NONE',  ( 0.000000000000000000, 0.000000000000000000, 1.000000000000000000 ) ) ;
#285 = EDGE_CURVE ( 'NONE', #91, #91, #212, .T. ) ;
#286 =( LENGTH_UNIT ( ) NAMED_UNIT ( * ) SI_UNIT ( .MILLI., .METRE. ) );
#287 = PERSON_AND_ORGANIZATION ( #264, #143 ) ;
#288 = CC_DESIGN_DATE_AND_TIME_ASSIGNMENT ( #249, #280, ( #309 ) ) ;
#289 = ADVANCED_FACE ( 'NONE', ( #124, #64 ), #232, .T. ) ;
#290 = CONICAL_SURFACE ( 'NONE', #60, 81.95068115818568799, 1.352630170295604506 ) ;
#291 = AXIS2_PLACEMENT_3D ( 'NONE', #189, #292, #157 ) ;
#292 = DIRECTION ( 'NONE',  ( 0.000000000000000000, 0.000000000000000000, 1.000000000000000000 ) ) ;
#293 = EDGE_LOOP ( 'NONE', ( #329 ) ) ;
#294 = CC_DESIGN_PERSON_AND_ORGANIZATION_ASSIGNMENT ( #287, #90, ( #58 ) ) ;
#295 = DIRECTION ( 'NONE',  ( 0.000000000000000000, 0.000000000000000000, 1.000000000000000000 ) ) ;
#296 = VERTEX_POINT ( 'NONE', #158 ) ;
#297 = CIRCLE ( 'NONE', #153, 17.50000000000000000 ) ;
#298 = DIRECTION ( 'NONE',  ( 1.000000000000000000, 0.000000000000000000, 0.000000000000000000 ) ) ;
#299 = EDGE_LOOP ( 'NONE', ( #187 ) ) ;
#300 = CIRCLE ( 'NONE', #169, 15.00000000000000000 ) ;
#301 = ORIENTED_EDGE ( 'NONE', *, *, #285, .T. ) ;
#302 = PERSON_AND_ORGANIZATION_ROLE ( 'design_supplier' ) ;
#303 = EDGE_LOOP ( 'NONE', ( #89 ) ) ;
#304 = DIRECTION ( 'NONE',  ( 1.000000000000000000, 0.000000000000000000, 0.000000000000000000 ) ) ;
#305 = PERSON_AND_ORGANIZATION_ROLE ( 'creator' ) ;
#306 = FACE_OUTER_BOUND ( 'NONE', #271, .T. ) ;
#307 = FACE_OUTER_BOUND ( 'NONE', #268, .T. ) ;
#308 = DIRECTION ( 'NONE',  ( -0.000000000000000000, -0.000000000000000000, 1.000000000000000000 ) ) ;
#309 = SECURITY_CLASSIFICATION ( '', '', #176 ) ;
#310 = ADVANCED_FACE ( 'NONE', ( #279, #59 ), #281, .T. ) ;
#311 = VERTEX_POINT ( 'NONE', #237 ) ;
#312 = ORIENTED_EDGE ( 'NONE', *, *, #50, .T. ) ;
#313 = EDGE_CURVE ( 'NONE', #19, #19, #300, .T. ) ;
#314 = PERSON_AND_ORGANIZATION ( #264, #143 ) ;
#315 = EDGE_LOOP ( 'NONE', ( #71 ) ) ;
#316 = VERTEX_POINT ( 'NONE', #86 ) ;
#317 = CONICAL_SURFACE ( 'NONE', #188, 95.50000000000000000, 1.352630170295604506 ) ;
#318 = ORIENTED_EDGE ( 'NONE', *, *, #133, .F. ) ;
#319 = APPROVAL ( #265, 'UNSPECIFIED' ) ;
#320 = DESIGN_CONTEXT ( 'detailed design', #325, 'design' ) ;
#321 = EDGE_LOOP ( 'NONE', ( #43 ) ) ;
#322 = CIRCLE ( 'NONE', #217, 81.95068115818568799 ) ;
#323 = CC_DESIGN_PERSON_AND_ORGANIZATION_ASSIGNMENT ( #275, #196, ( #309 ) ) ;
#324 = EDGE_LOOP ( 'NONE', ( #213 ) ) ;
#325 = APPLICATION_CONTEXT ( 'configuration controlled 3d designs of mechanical parts and assemblies' ) ;
#326 = APPROVAL_ROLE ( '' ) ;
#327 = FACE_BOUND ( 'NONE', #293, .T. ) ;
#328 = APPROVAL_STATUS ( 'not_yet_approved' ) ;
#329 = ORIENTED_EDGE ( 'NONE', *, *, #215, .T. ) ;
ENDSEC;
END-ISO-10303-21;
